Ergebnis 1 bis 12 von 12

Thema: gitaaren noten

  1. #1
    wmera15
    Gast Avatar von wmera15

    gitaaren noten

    suche eine gute seite außer ultimate guitar tabs womiot ich die gitarrennoten von fast allen interpreten finde

  2. #2
    BigJohn
    Gast Avatar von BigJohn

    AW: Tabulatur/Gitarren-Noten

    Was suchst du eigentlich ?
    Gitarrenbearbeitungen, Tabulatur oder Begleitakkorde

    Ahhh.. ich sehe auf http://www.ultimate-guitar.com/ was du brauchst:
    klassische Begleitung in Tabulatorform


    Hier hast du eine Übersicht von anderen, ähnlichen Seiten
    http://www.axetopia.com/topics/ultimate_guitar_tab.html

    Und hier noch eine Auflistung mit weiteren Angeboten:
    http://www.guitartabs.net/


    Hoffe, diese mehr als 40 Seiten helfen dir weiter, auf deinen Saiten zurecht zu kommen

  3. #3
    wmera15
    Gast Avatar von wmera15

    AW: Tabulatur/Gitarren-Noten

    danke vielmals du bist der beste

  4. #4
    wmera15
    Gast Avatar von wmera15

    AW: gitaaren noten

    aber die erste seite ultimate guitar tabs ist doch die gleiche oder und ich such mehr tabulator art

  5. #5
    wmera15
    Gast Avatar von wmera15

    AW: gitaaren noten

    wie mache ich das zuum beispiel ausführlich erklärung bitte
    Em Bm C5 G5 G5/F#

    e|----------------------------------------------------------------|

    B|-----------------3-3-3-3-3-3-3----------------------------------|

    G|--0-0-0-0-0-0-0--4-4-4-4-4-4-4--5-5-5-5-5-5-5-------------------|

    D|--2-2-2-2-2-2-2--4-4-4-4-4-4-4--5-5-5-5-5-5-5--5-5-5-5-5-5-5-5--|

    A|--2-2-2-2-2-2-2--2-2-2-2-2-2-2--3-3-3-3-3-3-3--5-5-5-5-5-5-5-5--|

    E|--0-0-0-0-0-0-0--------------------------------3-3-3-3-2-2-2-2--|

    und was bedeutet da das b und das x
    e--------------------------------12b----------12--12---|
    B-5b-----------------------------15b-15-12-15---12---X-|
    G-7b--7----------------------------------------------X-|
    D----7--------------5h7p5-7-7p5----------------------X-|
    A-------5h7p5-7-7p5------------------------------------|
    E------------------------------------------------------|

    und wie geht das
    chorus
    x3(on third time play through)
    |--00000000--22222222--55555555--55555555---|--2222222222222222------|
    |o-00000000--22222222--55555555--55555555-0-|--2222222222222222------|
    |--11111111--33333333--66666666--66665555---|--3333333333333333------|
    |--22222222--44444444--77777777--77777777---|--4444444444444444------|
    |o-22222222--44444444--77777777--77777777-o-|--4444444444444444------|
    |--00000000--22222222--55555555--55555555---|--2222222222222222------|
    danke um hilfe

  6. #6
    BigJohn
    Gast Avatar von BigJohn

    AW: gitaaren noten

    Zitat Zitat von wmera15 Beitrag anzeigen
    wie mache ich das zuum beispiel ausführlich erklärung bitte
    Em Bm C5 G5 G5/F#
    Akkorde E-moll, H-moll, C5, G5, G5 oder Fis-Dur
    e|----------------------------------------------------------------|

    B|-----------------3-3-3-3-3-3-3----------------------------------|

    G|--0-0-0-0-0-0-0--4-4-4-4-4-4-4--5-5-5-5-5-5-5-------------------|

    D|--2-2-2-2-2-2-2--4-4-4-4-4-4-4--5-5-5-5-5-5-5--5-5-5-5-5-5-5-5--|

    A|--2-2-2-2-2-2-2--2-2-2-2-2-2-2--3-3-3-3-3-3-3--5-5-5-5-5-5-5-5--|

    E|--0-0-0-0-0-0-0--------------------------------3-3-3-3-2-2-2-2--|

    und was bedeutet da das b (Flageolet spielen) und das x (leere Saite zupfen)-
    e--------------------------------12b----------12--12---|
    B-5b-----------------------------15b-15-12-15---12---X-|
    G-7b--7----------------------------------------------X-|
    D----7--------------5h7p5-7-7p5----------------------X-|
    A-------5h7p5-7-7p5------------------------------------|
    E------------------------------------------------------|

    und wie geht das
    chorus
    x3(on third time play through)3Mal spielen und beim 3. Mal weiter spielen.
    |--00000000--22222222--55555555--55555555---|--2222222222222222------|
    |o-00000000--22222222--55555555--55555555-0-|--2222222222222222------|
    |--11111111--33333333--66666666--66665555---|--3333333333333333------|
    |--22222222--44444444--77777777--77777777---|--4444444444444444------|
    |o-22222222--44444444--77777777--77777777-o-|--4444444444444444------|
    |--00000000--22222222--55555555--55555555---|--2222222222222222------|
    danke um hilfe

  7. #7
    BigJohn
    Gast Avatar von BigJohn

    AW: gitaaren noten

    Sicherheitshalber gesagt:
    Ich kann ab jetzt nicht weiter helfen.
    Spiele zwar ein paar Dutzend Instrumente.. aber mit Tabulatur habe ich mich nicht viel näher auseinandergesetzt.

    Ab jetzt können nur Gitarristen weiterhelfen..
    Gitarre ist leider nicht in meinem Spiel-Repertoire.

    Notfalls musst du einfach mal nach Tabulatur suchen und nach Akkordbüchern.
    Bei denen sind die Erklärungen bei, die du ejtzt evtl. noch brauchen könntest.

  8. #8
    wmera15
    Gast Avatar von wmera15

    AW: gitaaren noten

    was ist Flageolet spielen
    und danke für hilfe

  9. #9
    etabOlicle
    Gast Avatar von etabOlicle

    AW: gitaaren noten

    Kannst Du keine Tabs lesen? Ist doch ziemlich easy. Du hast Dort praktisch die Gitarrensaiten vor Augen.

    Alle (überlicherweise) 6 Saiten vorhanden.

    ---- (E1)
    ---- (B)
    ---- (G)
    ---- (D)
    ---- (A)
    ---- (E)

    Die Zahlen auf den Saiten geben an, in welchem Bund Du auf der Saite greifen musst.

    0 ist praktisch eine leerangeschlagene Saite
    1 im ersten Bund auf der jeweiligen Saite
    X eine abgedämpfte Note

    etc.

    die B Notes [--7b---] sind Noten mit einem Banding, das heisst der Ton wird innerhalb einer Saite Terzen hoch, oder runtergezogen. Ich hoffe Du weisst was ein Banding ist.

    Das unten sieht nach einem Rythmus aus. Da müsste auch ein Auf- oder Abschlag vorhanden sein. Ansonsten alles Abschläge.

    PS: die beste Seite für Tabulaturen war immer noch, Mysongbook.com! Wie gesagt, war. Haben ja alles rausgenommen... Jetzt bekommt man nur noch Tabs von unqualifizierten hobbydandlern.

  10. #10
    wmera15
    Gast Avatar von wmera15

    AW: gitaaren noten

    danke für die hilfe aber was heisst wenns wenn 12p7 steht oder 12b7

  11. #11
    cloudless
    Gast Avatar von cloudless

    AW: gitaaren noten

    Zitat Zitat von wmera15 Beitrag anzeigen
    danke für die hilfe aber was heisst wenns wenn 12p7 steht oder 12b7
    Das p steht für pull-off

    Das b steht für Bending

    Wenn du genaueres darüber wissen willst kannst du dich hier schlau lesen: Gitarren Tabs

  12. #12
    irgendwer Avatar von Fire

    Registriert seit
    1.12.07 - 13:50
    Beiträge
    2.163
    Thanks
    89
    Thanked 162 Times in 140 Posts

    AW: gitaaren noten

    jo
    Der PC rechnet mit allem, nur nicht mit seinem Besitzer.

Berechtigungen

  • Neue Themen erstellen: Nein
  • Themen beantworten: Nein
  • Anhänge hochladen: Nein
  • Beiträge bearbeiten: Nein
  •